kadia

Kadia Official Band Page

Bottled Up Tight – Luke Sital-Singh Guitar Tab

Artist: Luke Sital-Singh
Title: Bottled Up Tight
EP: Old Flint
Tabbed by: Chris Bailey (Bournemouth)

Capo 2nd Fret

INTRODUCTION
e-------------------------------------------------
B----1-----1-----1-----1----1-----1-----1-----1--
G---0-----0-----0-----0----0-----0-----0-----0---
D-------------3-----3----------------2-----0-----
A-3-----3-----------------2----2-----------------
E------------------------------------------------- x2

VERSE 1
I may be loose, I'm not a cannon
But I can be quiet saying my name
There are the ways where is the balance
e------------------------------------------------
B----1-----1-----1-----1----1-----1-----1-----1--
G---0-----0-----0-----0----0-----0-----0-----0---
D-------------3-----3----------------------------
A-3-----3-----------------2----2-----3-----3-----
E------------------------------------------------ x3

Maybe everyone's to blame.
e------------------------------
B---1--1---1---1---1--1--1--1--
G--0--0---0---0---0--0--0--0---
D------------------------------
A-0--0-----------3--3--3--3----
E--------3---3-----------------

VERSE 2
My heart and my mind have been with me always
But not long enough to keep them in line
I know that my mind has both getting bad days
e------------------------------------------------
B----1-----1-----1-----1----1-----1-----1-----1--
G---0-----0-----0-----0----0-----0-----0-----0---
D-------------3-----3----------------2-----0-----
A-3-----3-----------------2----2-----------------
E------------------------------------------------ x3

But my heart wins every time
e------------------------------
B---1--1---1---1---1--1--1--1--
G--0--0---0---0---0--0--0--0---
D------------------------------
A-0--0-----------3--3--3--3----
E--------3---3-----------------

CHORUS
I feel a fire, I see a flame set me alight,
bring me desire bottled up tight.
A cage in the ocean, dousing the sun, download the sky
bring me emotion, bottled up tight.

e-------------------------------------------------
B----1-----1-----1-----1----1-----1-----1-----1--
G---0-----0-----0-----0----0-----0-----0-----0---
D------------------------------------------------
A------------------------------------------------
E-1-----1-----1-----1-----3----3-----0-----0-----

e-------------------------------------------------
B----1-----1-----1-----1----1-----1-----1-----1--
G---0-----0-----0-----0----0-----0-----0-----0---
D------------------------------------------------
A------------------------------------3-----3-----
E-1-----1-----1-----1-----3----3----------------- REPEAT
VERSE 3
I count when I can the people who walk by,
Imagine their path crossing with mine,
And maybe it's true a part of a blood line,
e------------------------------------------------
B----1-----1-----1-----1----1-----1-----1-----1--
G---0-----0-----0-----0----0-----0-----0-----0---
D-------------3-----3----------------2-----0-----
A-3-----3-----------------2----2-----------------
E------------------------------------------------ x3

we walk like we're pretty much blind.
e------------------------------
B---1--1---1---1---1--1--1--1--
G--0--0---0---0---0--0--0--0---
D------------------------------
A-0--0-----------3--3--3--3----
E--------3---3-----------------
CHORUS 2
I feel a fire, I see a flame set me alight,
bring me desire bottled up tight.
A cage in the ocean, dousing the sun, download the sky
bring me emotion, bottled up tight.
e-------------------------------------------------
B----1-----1-----1-----1----1-----1-----1-----1--
G---0-----0-----0-----0----0-----0-----0-----0---
D------------------------------------------------
A------------------------------------------------
E-1-----1-----1-----1-----3----3-----0-----0-----

e-------------------------------------------------
B----1-----1-----1-----1----1-----1-----1-----1--
G---0-----0-----0-----0----0-----0-----0-----0---
D------------------------------------------------
A------------------------------------3-----3-----
E-1-----1-----1-----1-----3----3----------------- REPEAT

REPEAT ALL OF THAT CHORUS AGAIN

CHORUS 4
F F G Em
I feel a fire bring me desire
F F G C
I feel a fire bottled up tight.
F F G Em
A cage in the ocean, you flay my emotion..
F F G C
and give me devotion, bottled up tight.

F F G Em
Yeah,Yeah
F F G C

F F G Em
Yeah,Yeah

OUTRO
e-------------------------------------------------
B---1--------1--------1--------1------------------
G---0--------0--------0--------0------------------
D------------3------------------------------------
A---3-----------------2--------3------------------
E--------------------------------------------------